ISO-10303-21;
HEADER;
/* Generated by software containing ST-Developer
 * from STEP Tools, Inc. (www.steptools.com) 
 */

FILE_DESCRIPTION(
/* description */ (''),
/* implementation_level */ '2;1');

FILE_NAME(
/* name */ '80',
/* time_stamp */ '2012-10-10T11:20:34+08:00',
/* author */ (''),
/* organization */ (''),
/* preprocessor_version */ 'ST-DEVELOPER v9',
/* originating_system */ 'UGS - NX 4.0',
/* authorisation */ '');

FILE_SCHEMA (('CONFIG_CONTROL_DESIGN'));
ENDSEC;

DATA;
#10=SHAPE_REPRESENTATION_RELATIONSHIP('None',
'relationship between Admi7E4Cnq6x-None and Admi7E4Cnq6x-None',#94,#11);
#11=ADVANCED_BREP_SHAPE_REPRESENTATION('Admi7E4Cnq6x-None',(#95),#579);
#12=CC_DESIGN_APPROVAL(#24,(#82));
#13=CC_DESIGN_APPROVAL(#25,(#84));
#14=CC_DESIGN_APPROVAL(#26,(#31));
#15=APPROVAL_PERSON_ORGANIZATION(#69,#24,#18);
#16=APPROVAL_PERSON_ORGANIZATION(#70,#25,#19);
#17=APPROVAL_PERSON_ORGANIZATION(#71,#26,#20);
#18=APPROVAL_ROLE('approver');
#19=APPROVAL_ROLE('approver');
#20=APPROVAL_ROLE('approver');
#21=APPROVAL_DATE_TIME(#39,#24);
#22=APPROVAL_DATE_TIME(#40,#25);
#23=APPROVAL_DATE_TIME(#41,#26);
#24=APPROVAL(#27,' ');
#25=APPROVAL(#28,' ');
#26=APPROVAL(#29,' ');
#27=APPROVAL_STATUS('not_yet_approved');
#28=APPROVAL_STATUS('not_yet_approved');
#29=APPROVAL_STATUS('not_yet_approved');
#30=CC_DESIGN_SECURITY_CLASSIFICATION(#31,(#84));
#31=SECURITY_CLASSIFICATION(' ',' ',#32);
#32=SECURITY_CLASSIFICATION_LEVEL('confidential');
#33=CC_DESIGN_DATE_AND_TIME_ASSIGNMENT(#37,#35,(#82));
#34=CC_DESIGN_DATE_AND_TIME_ASSIGNMENT(#38,#36,(#31));
#35=DATE_TIME_ROLE('creation_date');
#36=DATE_TIME_ROLE('classification_date');
#37=DATE_AND_TIME(#52,#42);
#38=DATE_AND_TIME(#53,#43);
#39=DATE_AND_TIME(#54,#44);
#40=DATE_AND_TIME(#55,#45);
#41=DATE_AND_TIME(#56,#46);
#42=LOCAL_TIME(0,0,0.,#47);
#43=LOCAL_TIME(0,0,0.,#48);
#44=LOCAL_TIME(0,0,0.,#49);
#45=LOCAL_TIME(0,0,0.,#50);
#46=LOCAL_TIME(0,0,0.,#51);
#47=COORDINATED_UNIVERSAL_TIME_OFFSET(0,0,.BEHIND.);
#48=COORDINATED_UNIVERSAL_TIME_OFFSET(0,0,.BEHIND.);
#49=COORDINATED_UNIVERSAL_TIME_OFFSET(0,0,.BEHIND.);
#50=COORDINATED_UNIVERSAL_TIME_OFFSET(0,0,.BEHIND.);
#51=COORDINATED_UNIVERSAL_TIME_OFFSET(0,0,.BEHIND.);
#52=CALENDAR_DATE(0,1,1);
#53=CALENDAR_DATE(0,1,1);
#54=CALENDAR_DATE(0,1,1);
#55=CALENDAR_DATE(0,1,1);
#56=CALENDAR_DATE(0,1,1);
#57=CC_DESIGN_PERSON_AND_ORGANIZATION_ASSIGNMENT(#65,#61,(#82,#84));
#58=CC_DESIGN_PERSON_AND_ORGANIZATION_ASSIGNMENT(#66,#62,(#86));
#59=CC_DESIGN_PERSON_AND_ORGANIZATION_ASSIGNMENT(#67,#63,(#84));
#60=CC_DESIGN_PERSON_AND_ORGANIZATION_ASSIGNMENT(#68,#64,(#31));
#61=PERSON_AND_ORGANIZATION_ROLE('creator');
#62=PERSON_AND_ORGANIZATION_ROLE('design_owner');
#63=PERSON_AND_ORGANIZATION_ROLE('design_supplier');
#64=PERSON_AND_ORGANIZATION_ROLE('classification_officer');
#65=PERSON_AND_ORGANIZATION(#79,#72);
#66=PERSON_AND_ORGANIZATION(#79,#73);
#67=PERSON_AND_ORGANIZATION(#79,#74);
#68=PERSON_AND_ORGANIZATION(#79,#75);
#69=PERSON_AND_ORGANIZATION(#79,#76);
#70=PERSON_AND_ORGANIZATION(#79,#77);
#71=PERSON_AND_ORGANIZATION(#79,#78);
#72=ORGANIZATION(' ',' ',' ');
#73=ORGANIZATION(' ',' ',' ');
#74=ORGANIZATION(' ',' ',' ');
#75=ORGANIZATION(' ',' ',' ');
#76=ORGANIZATION(' ',' ',' ');
#77=ORGANIZATION(' ',' ',' ');
#78=ORGANIZATION(' ',' ',' ');
#79=PERSON(' ',' ',' ',(' '),$,$);
#80=SHAPE_DEFINITION_REPRESENTATION(#81,#94);
#81=PRODUCT_DEFINITION_SHAPE('','',#82);
#82=PRODUCT_DEFINITION(' ','',#84,#83);
#83=DESIGN_CONTEXT('',#93,'design');
#84=PRODUCT_DEFINITION_FORMATION_WITH_SPECIFIED_SOURCE(' ',' ',#86,.NOT_KNOWN.);
#85=PRODUCT_RELATED_PRODUCT_CATEGORY('detail','',(#86));
#86=PRODUCT('Admi7E4Cnq6x','Admi7E4Cnq6x',' ',(#91));
#87=PRODUCT_CATEGORY_RELATIONSHIP(' ',' ',#89,#90);
#88=PRODUCT_CATEGORY_RELATIONSHIP('','',#90,#85);
#89=PRODUCT_CATEGORY('part',' ');
#90=PRODUCT_CATEGORY(' ','');
#91=MECHANICAL_CONTEXT(' ',#93,'mechanical');
#92=APPLICATION_PROTOCOL_DEFINITION('international standard',
'config_control_design',1994,#93);
#93=APPLICATION_CONTEXT(
'configuration controlled 3D designs of mechanical parts and assemblies
');
#94=SHAPE_REPRESENTATION('Admi7E4Cnq6x-None',(#391),#579);
#95=MANIFOLD_SOLID_BREP('',#96);
#96=CLOSED_SHELL('',(#104,#105,#106,#107,#108,#109,#110,#111,#112,#113,#114,
#115,#116,#117,#118,#119,#120,#121));
#97=VERTEX_LOOP('',#293);
#98=VERTEX_LOOP('',#294);
#99=CONICAL_SURFACE('',#405,3.,45.);
#100=CONICAL_SURFACE('',#406,3.,45.);
#101=CONICAL_SURFACE('',#414,2.5,51.3401917459099);
#102=CONICAL_SURFACE('',#415,0.,51.3401917459099);
#103=CYLINDRICAL_SURFACE('',#404,2.5);
#104=ADVANCED_FACE('',(#152,#135,#136),#122,.F.);
#105=ADVANCED_FACE('',(#153),#123,.F.);
#106=ADVANCED_FACE('',(#154),#124,.F.);
#107=ADVANCED_FACE('',(#137,#155),#125,.F.);
#108=ADVANCED_FACE('',(#156),#126,.F.);
#109=ADVANCED_FACE('',(#157),#127,.F.);
#110=ADVANCED_FACE('',(#158),#128,.T.);
#111=ADVANCED_FACE('',(#159),#129,.F.);
#112=ADVANCED_FACE('',(#138,#139),#103,.F.);
#113=ADVANCED_FACE('',(#140,#160),#99,.F.);
#114=ADVANCED_FACE('',(#141,#161),#100,.F.);
#115=ADVANCED_FACE('',(#162),#130,.T.);
#116=ADVANCED_FACE('',(#163),#131,.T.);
#117=ADVANCED_FACE('',(#142,#143,#164),#132,.T.);
#118=ADVANCED_FACE('',(#165),#133,.T.);
#119=ADVANCED_FACE('',(#166),#134,.T.);
#120=ADVANCED_FACE('',(#144,#167),#101,.F.);
#121=ADVANCED_FACE('',(#168,#145),#102,.F.);
#122=PLANE('',#393);
#123=PLANE('',#394);
#124=PLANE('',#395);
#125=PLANE('',#397);
#126=PLANE('',#398);
#127=PLANE('',#399);
#128=PLANE('',#400);
#129=PLANE('',#401);
#130=PLANE('',#407);
#131=PLANE('',#408);
#132=PLANE('',#411);
#133=PLANE('',#412);
#134=PLANE('',#413);
#135=FACE_BOUND('',#170,.T.);
#136=FACE_BOUND('',#171,.T.);
#137=FACE_BOUND('',#174,.T.);
#138=FACE_BOUND('',#180,.T.);
#139=FACE_BOUND('',#181,.T.);
#140=FACE_BOUND('',#182,.T.);
#141=FACE_BOUND('',#184,.T.);
#142=FACE_BOUND('',#188,.T.);
#143=FACE_BOUND('',#189,.T.);
#144=FACE_BOUND('',#97,.T.);
#145=FACE_BOUND('',#98,.T.);
#146=CIRCLE('',#392,3.);
#147=CIRCLE('',#396,3.);
#148=CIRCLE('',#402,2.5);
#149=CIRCLE('',#403,2.5);
#150=CIRCLE('',#409,2.5);
#151=CIRCLE('',#410,2.5);
#152=FACE_OUTER_BOUND('',#169,.T.);
#153=FACE_OUTER_BOUND('',#172,.T.);
#154=FACE_OUTER_BOUND('',#173,.T.);
#155=FACE_OUTER_BOUND('',#175,.T.);
#156=FACE_OUTER_BOUND('',#176,.T.);
#157=FACE_OUTER_BOUND('',#177,.T.);
#158=FACE_OUTER_BOUND('',#178,.T.);
#159=FACE_OUTER_BOUND('',#179,.T.);
#160=FACE_OUTER_BOUND('',#183,.T.);
#161=FACE_OUTER_BOUND('',#185,.T.);
#162=FACE_OUTER_BOUND('',#186,.T.);
#163=FACE_OUTER_BOUND('',#187,.T.);
#164=FACE_OUTER_BOUND('',#190,.T.);
#165=FACE_OUTER_BOUND('',#191,.T.);
#166=FACE_OUTER_BOUND('',#192,.T.);
#167=FACE_OUTER_BOUND('',#193,.T.);
#168=FACE_OUTER_BOUND('',#194,.T.);
#169=EDGE_LOOP('',(#195,#196,#197,#198));
#170=EDGE_LOOP('',(#199));
#171=EDGE_LOOP('',(#200,#201,#202,#203));
#172=EDGE_LOOP('',(#204,#205,#206,#207));
#173=EDGE_LOOP('',(#208,#209,#210,#211));
#174=EDGE_LOOP('',(#212));
#175=EDGE_LOOP('',(#213,#214,#215,#216));
#176=EDGE_LOOP('',(#217,#218,#219,#220));
#177=EDGE_LOOP('',(#221,#222,#223,#224));
#178=EDGE_LOOP('',(#225,#226,#227,#228,#229,#230));
#179=EDGE_LOOP('',(#231,#232,#233,#234,#235,#236));
#180=EDGE_LOOP('',(#237));
#181=EDGE_LOOP('',(#238));
#182=EDGE_LOOP('',(#239));
#183=EDGE_LOOP('',(#240));
#184=EDGE_LOOP('',(#241));
#185=EDGE_LOOP('',(#242));
#186=EDGE_LOOP('',(#243,#244,#245,#246));
#187=EDGE_LOOP('',(#247,#248,#249,#250));
#188=EDGE_LOOP('',(#251));
#189=EDGE_LOOP('',(#252));
#190=EDGE_LOOP('',(#253,#254,#255,#256));
#191=EDGE_LOOP('',(#257,#258,#259,#260));
#192=EDGE_LOOP('',(#261,#262,#263,#264));
#193=EDGE_LOOP('',(#265));
#194=EDGE_LOOP('',(#266));
#195=ORIENTED_EDGE('',*,*,#295,.T.);
#196=ORIENTED_EDGE('',*,*,#296,.F.);
#197=ORIENTED_EDGE('',*,*,#297,.F.);
#198=ORIENTED_EDGE('',*,*,#298,.T.);
#199=ORIENTED_EDGE('',*,*,#299,.T.);
#200=ORIENTED_EDGE('',*,*,#300,.F.);
#201=ORIENTED_EDGE('',*,*,#301,.F.);
#202=ORIENTED_EDGE('',*,*,#302,.T.);
#203=ORIENTED_EDGE('',*,*,#303,.T.);
#204=ORIENTED_EDGE('',*,*,#304,.T.);
#205=ORIENTED_EDGE('',*,*,#305,.F.);
#206=ORIENTED_EDGE('',*,*,#306,.F.);
#207=ORIENTED_EDGE('',*,*,#296,.T.);
#208=ORIENTED_EDGE('',*,*,#307,.T.);
#209=ORIENTED_EDGE('',*,*,#308,.F.);
#210=ORIENTED_EDGE('',*,*,#309,.F.);
#211=ORIENTED_EDGE('',*,*,#305,.T.);
#212=ORIENTED_EDGE('',*,*,#310,.T.);
#213=ORIENTED_EDGE('',*,*,#311,.T.);
#214=ORIENTED_EDGE('',*,*,#312,.F.);
#215=ORIENTED_EDGE('',*,*,#313,.F.);
#216=ORIENTED_EDGE('',*,*,#308,.T.);
#217=ORIENTED_EDGE('',*,*,#314,.T.);
#218=ORIENTED_EDGE('',*,*,#315,.F.);
#219=ORIENTED_EDGE('',*,*,#316,.F.);
#220=ORIENTED_EDGE('',*,*,#312,.T.);
#221=ORIENTED_EDGE('',*,*,#317,.T.);
#222=ORIENTED_EDGE('',*,*,#298,.F.);
#223=ORIENTED_EDGE('',*,*,#318,.F.);
#224=ORIENTED_EDGE('',*,*,#315,.T.);
#225=ORIENTED_EDGE('',*,*,#297,.T.);
#226=ORIENTED_EDGE('',*,*,#306,.T.);
#227=ORIENTED_EDGE('',*,*,#309,.T.);
#228=ORIENTED_EDGE('',*,*,#313,.T.);
#229=ORIENTED_EDGE('',*,*,#316,.T.);
#230=ORIENTED_EDGE('',*,*,#318,.T.);
#231=ORIENTED_EDGE('',*,*,#304,.F.);
#232=ORIENTED_EDGE('',*,*,#295,.F.);
#233=ORIENTED_EDGE('',*,*,#317,.F.);
#234=ORIENTED_EDGE('',*,*,#314,.F.);
#235=ORIENTED_EDGE('',*,*,#311,.F.);
#236=ORIENTED_EDGE('',*,*,#307,.F.);
#237=ORIENTED_EDGE('',*,*,#319,.T.);
#238=ORIENTED_EDGE('',*,*,#320,.T.);
#239=ORIENTED_EDGE('',*,*,#319,.F.);
#240=ORIENTED_EDGE('',*,*,#310,.F.);
#241=ORIENTED_EDGE('',*,*,#320,.F.);
#242=ORIENTED_EDGE('',*,*,#299,.F.);
#243=ORIENTED_EDGE('',*,*,#321,.F.);
#244=ORIENTED_EDGE('',*,*,#322,.F.);
#245=ORIENTED_EDGE('',*,*,#323,.T.);
#246=ORIENTED_EDGE('',*,*,#301,.T.);
#247=ORIENTED_EDGE('',*,*,#324,.F.);
#248=ORIENTED_EDGE('',*,*,#303,.F.);
#249=ORIENTED_EDGE('',*,*,#325,.T.);
#250=ORIENTED_EDGE('',*,*,#326,.T.);
#251=ORIENTED_EDGE('',*,*,#327,.F.);
#252=ORIENTED_EDGE('',*,*,#328,.F.);
#253=ORIENTED_EDGE('',*,*,#329,.F.);
#254=ORIENTED_EDGE('',*,*,#326,.F.);
#255=ORIENTED_EDGE('',*,*,#330,.T.);
#256=ORIENTED_EDGE('',*,*,#322,.T.);
#257=ORIENTED_EDGE('',*,*,#330,.F.);
#258=ORIENTED_EDGE('',*,*,#325,.F.);
#259=ORIENTED_EDGE('',*,*,#302,.F.);
#260=ORIENTED_EDGE('',*,*,#323,.F.);
#261=ORIENTED_EDGE('',*,*,#329,.T.);
#262=ORIENTED_EDGE('',*,*,#321,.T.);
#263=ORIENTED_EDGE('',*,*,#300,.T.);
#264=ORIENTED_EDGE('',*,*,#324,.T.);
#265=ORIENTED_EDGE('',*,*,#328,.T.);
#266=ORIENTED_EDGE('',*,*,#327,.T.);
#267=VERTEX_POINT('',#498);
#268=VERTEX_POINT('',#499);
#269=VERTEX_POINT('',#501);
#270=VERTEX_POINT('',#503);
#271=VERTEX_POINT('',#506);
#272=VERTEX_POINT('',#508);
#273=VERTEX_POINT('',#509);
#274=VERTEX_POINT('',#511);
#275=VERTEX_POINT('',#513);
#276=VERTEX_POINT('',#517);
#277=VERTEX_POINT('',#519);
#278=VERTEX_POINT('',#523);
#279=VERTEX_POINT('',#525);
#280=VERTEX_POINT('',#529);
#281=VERTEX_POINT('',#531);
#282=VERTEX_POINT('',#533);
#283=VERTEX_POINT('',#537);
#284=VERTEX_POINT('',#539);
#285=VERTEX_POINT('',#548);
#286=VERTEX_POINT('',#550);
#287=VERTEX_POINT('',#555);
#288=VERTEX_POINT('',#557);
#289=VERTEX_POINT('',#561);
#290=VERTEX_POINT('',#563);
#291=VERTEX_POINT('',#567);
#292=VERTEX_POINT('',#569);
#293=VERTEX_POINT('',#575);
#294=VERTEX_POINT('',#577);
#295=EDGE_CURVE('',#267,#268,#331,.T.);
#296=EDGE_CURVE('',#269,#268,#332,.T.);
#297=EDGE_CURVE('',#270,#269,#333,.T.);
#298=EDGE_CURVE('',#270,#267,#334,.T.);
#299=EDGE_CURVE('',#271,#271,#146,.T.);
#300=EDGE_CURVE('',#272,#273,#335,.T.);
#301=EDGE_CURVE('',#274,#272,#336,.T.);
#302=EDGE_CURVE('',#274,#275,#337,.T.);
#303=EDGE_CURVE('',#275,#273,#338,.T.);
#304=EDGE_CURVE('',#268,#276,#339,.T.);
#305=EDGE_CURVE('',#277,#276,#340,.T.);
#306=EDGE_CURVE('',#269,#277,#341,.T.);
#307=EDGE_CURVE('',#276,#278,#342,.T.);
#308=EDGE_CURVE('',#279,#278,#343,.T.);
#309=EDGE_CURVE('',#277,#279,#344,.T.);
#310=EDGE_CURVE('',#280,#280,#147,.T.);
#311=EDGE_CURVE('',#278,#281,#345,.T.);
#312=EDGE_CURVE('',#282,#281,#346,.T.);
#313=EDGE_CURVE('',#279,#282,#347,.T.);
#314=EDGE_CURVE('',#281,#283,#348,.T.);
#315=EDGE_CURVE('',#284,#283,#349,.T.);
#316=EDGE_CURVE('',#282,#284,#350,.T.);
#317=EDGE_CURVE('',#283,#267,#351,.T.);
#318=EDGE_CURVE('',#284,#270,#352,.T.);
#319=EDGE_CURVE('',#285,#285,#148,.T.);
#320=EDGE_CURVE('',#286,#286,#149,.T.);
#321=EDGE_CURVE('',#287,#272,#353,.T.);
#322=EDGE_CURVE('',#288,#287,#354,.T.);
#323=EDGE_CURVE('',#288,#274,#355,.T.);
#324=EDGE_CURVE('',#273,#289,#356,.T.);
#325=EDGE_CURVE('',#275,#290,#357,.T.);
#326=EDGE_CURVE('',#290,#289,#358,.T.);
#327=EDGE_CURVE('',#291,#291,#150,.T.);
#328=EDGE_CURVE('',#292,#292,#151,.T.);
#329=EDGE_CURVE('',#289,#287,#359,.T.);
#330=EDGE_CURVE('',#290,#288,#360,.T.);
#331=LINE('',#497,#361);
#332=LINE('',#500,#362);
#333=LINE('',#502,#363);
#334=LINE('',#504,#364);
#335=LINE('',#507,#365);
#336=LINE('',#510,#366);
#337=LINE('',#512,#367);
#338=LINE('',#514,#368);
#339=LINE('',#516,#369);
#340=LINE('',#518,#370);
#341=LINE('',#520,#371);
#342=LINE('',#522,#372);
#343=LINE('',#524,#373);
#344=LINE('',#526,#374);
#345=LINE('',#530,#375);
#346=LINE('',#532,#376);
#347=LINE('',#534,#377);
#348=LINE('',#536,#378);
#349=LINE('',#538,#379);
#350=LINE('',#540,#380);
#351=LINE('',#542,#381);
#352=LINE('',#543,#382);
#353=LINE('',#554,#383);
#354=LINE('',#556,#384);
#355=LINE('',#558,#385);
#356=LINE('',#560,#386);
#357=LINE('',#562,#387);
#358=LINE('',#564,#388);
#359=LINE('',#570,#389);
#360=LINE('',#571,#390);
#361=VECTOR('',#418,1.);
#362=VECTOR('',#419,1.);
#363=VECTOR('',#420,1.);
#364=VECTOR('',#421,1.);
#365=VECTOR('',#424,1.);
#366=VECTOR('',#425,1.);
#367=VECTOR('',#426,1.);
#368=VECTOR('',#427,1.);
#369=VECTOR('',#430,1.);
#370=VECTOR('',#431,1.);
#371=VECTOR('',#432,1.);
#372=VECTOR('',#435,1.);
#373=VECTOR('',#436,1.);
#374=VECTOR('',#437,1.);
#375=VECTOR('',#442,1.);
#376=VECTOR('',#443,1.);
#377=VECTOR('',#444,1.);
#378=VECTOR('',#447,1.);
#379=VECTOR('',#448,1.);
#380=VECTOR('',#449,1.);
#381=VECTOR('',#452,1.);
#382=VECTOR('',#453,1.);
#383=VECTOR('',#470,1.);
#384=VECTOR('',#471,1.);
#385=VECTOR('',#472,1.);
#386=VECTOR('',#475,1.);
#387=VECTOR('',#476,1.);
#388=VECTOR('',#477,1.);
#389=VECTOR('',#484,1.);
#390=VECTOR('',#485,1.);
#391=AXIS2_PLACEMENT_3D('',#496,#416,#417);
#392=AXIS2_PLACEMENT_3D('',#505,#422,#423);
#393=AXIS2_PLACEMENT_3D('',#515,#428,#429);
#394=AXIS2_PLACEMENT_3D('',#521,#433,#434);
#395=AXIS2_PLACEMENT_3D('',#527,#438,#439);
#396=AXIS2_PLACEMENT_3D('',#528,#440,#441);
#397=AXIS2_PLACEMENT_3D('',#535,#445,#446);
#398=AXIS2_PLACEMENT_3D('',#541,#450,#451);
#399=AXIS2_PLACEMENT_3D('',#544,#454,#455);
#400=AXIS2_PLACEMENT_3D('',#545,#456,#457);
#401=AXIS2_PLACEMENT_3D('',#546,#458,#459);
#402=AXIS2_PLACEMENT_3D('',#547,#460,#461);
#403=AXIS2_PLACEMENT_3D('',#549,#462,#463);
#404=AXIS2_PLACEMENT_3D('',#551,#464,#465);
#405=AXIS2_PLACEMENT_3D('',#552,#466,#467);
#406=AXIS2_PLACEMENT_3D('',#553,#468,#469);
#407=AXIS2_PLACEMENT_3D('',#559,#473,#474);
#408=AXIS2_PLACEMENT_3D('',#565,#478,#479);
#409=AXIS2_PLACEMENT_3D('',#566,#480,#481);
#410=AXIS2_PLACEMENT_3D('',#568,#482,#483);
#411=AXIS2_PLACEMENT_3D('',#572,#486,#487);
#412=AXIS2_PLACEMENT_3D('',#573,#488,#489);
#413=AXIS2_PLACEMENT_3D('',#574,#490,#491);
#414=AXIS2_PLACEMENT_3D('',#576,#492,#493);
#415=AXIS2_PLACEMENT_3D('',#578,#494,#495);
#416=DIRECTION('',(0.,0.,1.));
#417=DIRECTION('',(1.,0.,0.));
#418=DIRECTION('',(1.,0.,0.));
#419=DIRECTION('',(0.,0.,-1.));
#420=DIRECTION('',(1.,0.,0.));
#421=DIRECTION('',(0.,0.,-1.));
#422=DIRECTION('',(0.,1.,0.));
#423=DIRECTION('',(0.,0.,1.));
#424=DIRECTION('',(1.,0.,0.));
#425=DIRECTION('',(0.,0.,-1.));
#426=DIRECTION('',(1.,0.,0.));
#427=DIRECTION('',(0.,0.,-1.));
#428=DIRECTION('',(0.,1.,0.));
#429=DIRECTION('',(0.,0.,1.));
#430=DIRECTION('',(0.,1.,0.));
#431=DIRECTION('',(0.,0.,-1.));
#432=DIRECTION('',(0.,1.,0.));
#433=DIRECTION('',(-1.,0.,0.));
#434=DIRECTION('',(0.,0.,1.));
#435=DIRECTION('',(-0.707106781186547,0.707106781186547,0.));
#436=DIRECTION('',(0.,0.,-1.));
#437=DIRECTION('',(-0.707106781186547,0.707106781186547,0.));
#438=DIRECTION('',(-0.707106781186548,-0.707106781186548,0.));
#439=DIRECTION('',(0.707106781186548,-0.707106781186548,0.));
#440=DIRECTION('',(0.,-1.,0.));
#441=DIRECTION('',(0.,0.,-1.));
#442=DIRECTION('',(-1.,0.,0.));
#443=DIRECTION('',(0.,0.,-1.));
#444=DIRECTION('',(-1.,0.,0.));
#445=DIRECTION('',(0.,-1.,0.));
#446=DIRECTION('',(0.,0.,-1.));
#447=DIRECTION('',(-0.707106781186547,-0.707106781186547,0.));
#448=DIRECTION('',(0.,0.,-1.));
#449=DIRECTION('',(-0.707106781186547,-0.707106781186547,0.));
#450=DIRECTION('',(0.707106781186548,-0.707106781186548,0.));
#451=DIRECTION('',(0.707106781186548,0.707106781186548,0.));
#452=DIRECTION('',(0.,-1.,0.));
#453=DIRECTION('',(0.,-1.,0.));
#454=DIRECTION('',(1.,0.,0.));
#455=DIRECTION('',(0.,0.,-1.));
#456=DIRECTION('',(0.,0.,1.));
#457=DIRECTION('',(1.,0.,0.));
#458=DIRECTION('',(0.,0.,1.));
#459=DIRECTION('',(1.,0.,0.));
#460=DIRECTION('',(0.,1.,0.));
#461=DIRECTION('',(0.,0.,-1.));
#462=DIRECTION('',(0.,-1.,0.));
#463=DIRECTION('',(0.,0.,1.));
#464=DIRECTION('',(0.,1.,0.));
#465=DIRECTION('',(0.,0.,1.));
#466=DIRECTION('',(0.,1.,0.));
#467=DIRECTION('',(0.,-6.91813948545088E-017,1.));
#468=DIRECTION('',(0.,-1.,0.));
#469=DIRECTION('',(0.,4.15088369127053E-017,-1.));
#470=DIRECTION('',(-0.0619151169453304,0.990641871125285,-0.12163552715815));
#471=DIRECTION('',(0.,0.,-1.));
#472=DIRECTION('',(-0.0619151169453304,0.990641871125285,0.12163552715815));
#473=DIRECTION('',(-0.998052578482889,-0.0623782861551807,0.));
#474=DIRECTION('',(0.0623782861551807,-0.998052578482889,0.));
#475=DIRECTION('',(-0.0619151169453304,-0.990641871125285,0.12163552715815));
#476=DIRECTION('',(-0.0619151169453304,-0.990641871125285,-0.12163552715815));
#477=DIRECTION('',(0.,0.,-1.));
#478=DIRECTION('',(0.998052578482889,-0.0623782861551807,0.));
#479=DIRECTION('',(0.0623782861551807,0.998052578482889,0.));
#480=DIRECTION('',(0.,-1.,0.));
#481=DIRECTION('',(0.,0.,-1.));
#482=DIRECTION('',(0.,-1.,0.));
#483=DIRECTION('',(0.,0.,-1.));
#484=DIRECTION('',(-1.,0.,0.));
#485=DIRECTION('',(-1.,0.,0.));
#486=DIRECTION('',(0.,-1.,0.));
#487=DIRECTION('',(0.,0.,-1.));
#488=DIRECTION('',(0.,-0.121869343405147,0.992546151641322));
#489=DIRECTION('',(0.,-0.992546151641322,-0.121869343405147));
#490=DIRECTION('',(0.,-0.121869343405147,-0.992546151641322));
#491=DIRECTION('',(0.,0.992546151641322,-0.121869343405147));
#492=DIRECTION('',(0.,-1.,0.));
#493=DIRECTION('',(0.,2.2160140212079E-017,-1.));
#494=DIRECTION('',(0.,-1.,0.));
#495=DIRECTION('',(0.,2.22044604925031E-017,-1.));
#496=CARTESIAN_POINT('',(0.,0.,0.));
#497=CARTESIAN_POINT('',(128.,104.5,-9.5));
#498=CARTESIAN_POINT('',(118.5,104.5,-9.5));
#499=CARTESIAN_POINT('',(201.5,104.5,-9.5));
#500=CARTESIAN_POINT('',(201.5,104.5,9.5));
#501=CARTESIAN_POINT('',(201.5,104.5,9.5));
#502=CARTESIAN_POINT('',(160.,104.5,9.5));
#503=CARTESIAN_POINT('',(118.5,104.5,9.5));
#504=CARTESIAN_POINT('',(118.5,104.5,9.5));
#505=CARTESIAN_POINT('',(192.,104.5,0.));
#506=CARTESIAN_POINT('',(192.,104.5,3.));
#507=CARTESIAN_POINT('',(160.,104.5,-8.));
#508=CARTESIAN_POINT('',(119.,104.5,-8.));
#509=CARTESIAN_POINT('',(168.,104.5,-8.));
#510=CARTESIAN_POINT('',(119.,104.5,8.));
#511=CARTESIAN_POINT('',(119.,104.5,8.));
#512=CARTESIAN_POINT('',(160.,104.5,8.));
#513=CARTESIAN_POINT('',(168.,104.5,8.));
#514=CARTESIAN_POINT('',(168.,104.5,8.));
#515=CARTESIAN_POINT('',(128.,104.5,9.5));
#516=CARTESIAN_POINT('',(201.5,104.5,-9.5));
#517=CARTESIAN_POINT('',(201.5,117.,-9.5));
#518=CARTESIAN_POINT('',(201.5,117.,9.5));
#519=CARTESIAN_POINT('',(201.5,117.,9.5));
#520=CARTESIAN_POINT('',(201.5,104.5,9.5));
#521=CARTESIAN_POINT('',(201.5,104.5,9.5));
#522=CARTESIAN_POINT('',(201.5,117.,-9.5));
#523=CARTESIAN_POINT('',(201.,117.5,-9.5));
#524=CARTESIAN_POINT('',(201.,117.5,9.5));
#525=CARTESIAN_POINT('',(201.,117.5,9.5));
#526=CARTESIAN_POINT('',(201.5,117.,9.5));
#527=CARTESIAN_POINT('',(201.5,117.,9.5));
#528=CARTESIAN_POINT('',(192.,117.5,0.));
#529=CARTESIAN_POINT('',(192.,117.5,-3.));
#530=CARTESIAN_POINT('',(128.,117.5,-9.5));
#531=CARTESIAN_POINT('',(119.,117.5,-9.5));
#532=CARTESIAN_POINT('',(119.,117.5,9.5));
#533=CARTESIAN_POINT('',(119.,117.5,9.5));
#534=CARTESIAN_POINT('',(201.,117.5,9.5));
#535=CARTESIAN_POINT('',(128.,117.5,9.5));
#536=CARTESIAN_POINT('',(119.,117.5,-9.5));
#537=CARTESIAN_POINT('',(118.5,117.,-9.5));
#538=CARTESIAN_POINT('',(118.5,117.,9.5));
#539=CARTESIAN_POINT('',(118.5,117.,9.5));
#540=CARTESIAN_POINT('',(119.,117.5,9.5));
#541=CARTESIAN_POINT('',(119.,117.5,9.5));
#542=CARTESIAN_POINT('',(118.5,117.,-9.5));
#543=CARTESIAN_POINT('',(118.5,117.,9.5));
#544=CARTESIAN_POINT('',(118.5,117.,9.5));
#545=CARTESIAN_POINT('',(201.5,104.5,9.5));
#546=CARTESIAN_POINT('',(201.5,104.5,-9.5));
#547=CARTESIAN_POINT('',(192.,117.,0.));
#548=CARTESIAN_POINT('',(192.,117.,-2.5));
#549=CARTESIAN_POINT('',(192.,105.,0.));
#550=CARTESIAN_POINT('',(192.,105.,2.5));
#551=CARTESIAN_POINT('',(192.,96.5,0.));
#552=CARTESIAN_POINT('',(192.,117.5,0.));
#553=CARTESIAN_POINT('',(192.,104.5,0.));
#554=CARTESIAN_POINT('',(119.157172749961,101.985236000632,-7.69122580656315));
#555=CARTESIAN_POINT('',(119.5,96.5,-7.01772351277676));
#556=CARTESIAN_POINT('',(119.5,96.5,8.));
#557=CARTESIAN_POINT('',(119.5,96.5,7.01772351277676));
#558=CARTESIAN_POINT('',(119.157172749961,101.985236000632,7.69122580656315));
#559=CARTESIAN_POINT('',(119.5,96.5,8.));
#560=CARTESIAN_POINT('',(167.969332146349,104.009314341587,-7.93975137689037));
#561=CARTESIAN_POINT('',(167.5,96.5,-7.01772351277676));
#562=CARTESIAN_POINT('',(167.969332146349,104.009314341587,7.93975137689037));
#563=CARTESIAN_POINT('',(167.5,96.5,7.01772351277676));
#564=CARTESIAN_POINT('',(167.5,96.5,8.));
#565=CARTESIAN_POINT('',(168.,104.5,8.));
#566=CARTESIAN_POINT('',(160.,96.5,0.));
#567=CARTESIAN_POINT('',(160.,96.5,-2.5));
#568=CARTESIAN_POINT('',(128.,96.5,0.));
#569=CARTESIAN_POINT('',(128.,96.5,-2.5));
#570=CARTESIAN_POINT('',(160.,96.5,-7.01772351277676));
#571=CARTESIAN_POINT('',(160.,96.5,7.01772351277676));
#572=CARTESIAN_POINT('',(128.,96.5,8.));
#573=CARTESIAN_POINT('',(160.,104.5,8.));
#574=CARTESIAN_POINT('',(160.,104.5,-8.));
#575=CARTESIAN_POINT('',(128.,98.5,0.));
#576=CARTESIAN_POINT('',(128.,96.5,0.));
#577=CARTESIAN_POINT('',(160.,98.5,0.));
#578=CARTESIAN_POINT('',(160.,98.5,0.));
#579=(
GEOMETRIC_REPRESENTATION_CONTEXT(3)
GLOBAL_UNCERTAINTY_ASSIGNED_CONTEXT((#580))
GLOBAL_UNIT_ASSIGNED_CONTEXT((#586,#582,#581))
REPRESENTATION_CONTEXT('80','TOP_LEVEL_ASSEMBLY_PART')
);
#580=UNCERTAINTY_MEASURE_WITH_UNIT(LENGTH_MEASURE(2.E-005),#586,
'DISTANCE_ACCURACY_VALUE','Maximum Tolerance applied to model');
#581=(
NAMED_UNIT(*)
SI_UNIT($,.STERADIAN.)
SOLID_ANGLE_UNIT()
);
#582=(
CONVERSION_BASED_UNIT('DEGREE',#584)
NAMED_UNIT(#583)
PLANE_ANGLE_UNIT()
);
#583=DIMENSIONAL_EXPONENTS(0.,0.,0.,0.,0.,0.,0.);
#584=PLANE_ANGLE_MEASURE_WITH_UNIT(PLANE_ANGLE_MEASURE(0.0174532925),#585);
#585=(
NAMED_UNIT(*)
PLANE_ANGLE_UNIT()
SI_UNIT($,.RADIAN.)
);
#586=(
LENGTH_UNIT()
NAMED_UNIT(*)
SI_UNIT(.MILLI.,.METRE.)
);
ENDSEC;
END-ISO-10303-21;
